Song: Disco

Band: Widespread Panic

Rating: -1 +1 Views: 433

Main Chords:
|----1------1------0----|
|----3------1------1----|
|----2------2------0----| (x4)
|----0------3------2----|
|-----------3------3----|
|-----------1-----------|
     Dm     F      C


Second Stanza:
|---------------------------------------|
|--3--3--6-5-5--3--3--3/6-6-6--6-6-6-6--|
|--2--2--7-5-5--4--4--4/7-7-7--7-7-7-7--| (x4)
|---------------------------------------|
|---------------------------------------|
|---------------------------------------|



    

(Main Chords)

(Second Stanza)

Bridge:
|----12---12-12---12---12-12--|
|----12---15-15---12---15-15--|
|----12---12-12---12---12-12--| (x4)
|----14---14-14---14---14-14--|
|----12---12-12---12---12-12--|
|-----------------------------|
     ^ fast strum ^



    

|-----------------------------(x3)|
|--6-6-6-6-6-6-6--5-5--5-3-3-3-3--|
|.-7-7-7-7-7-7-7--5-5--5-4-4-4-4--|
|.--------------------------------|
|---------------------------------|
|---------------------------------|

|------------------------------------|
|--3-3-3-3-3-3-3-3--3/6-6-6-6-6-6-6--|
|--4-4-4-4-4-4-4-4--4/7-7-7-7-7-7-7-.|
|-----------------------------------.|
|------------------------------------|
|------------------------------------|

(Bridge) (x2)

(Main Chords)

(Second Stanza)

Jam out over the Main Chords

Close panel

Help Rate This Tab by Voting Up or Down

Vote Up Vote Down
Rating: -1 +1

Other Songs Like This

x

Copyright © 2019